  0
SECTION
  2
HEADER
  9
$ACADVER
  1
AC1015
  9
$ACADMAINTVER
 70
     6
  9
$DWGCODEPAGE
  3
ANSI_1254
  9
$INSBASE
 10
0.0
 20
0.0
 30
0.0
  9
$EXTMIN
 10
0.0
 20
0.0
 30
0.0
  9
$EXTMAX
 10
279.4
 20
215.9
 30
0.0
  9
$LIMMIN
 10
0.0
 20
0.0
  9
$LIMMAX
 10
279.4
 20
215.9
  9
$ORTHOMODE
 70
     0
  9
$REGENMODE
 70
     1
  9
$FILLMODE
 70
     1
  9
$QTEXTMODE
 70
     0
  9
$MIRRTEXT
 70
     1
  9
$LTSCALE
 40
1.0
  9
$ATTMODE
 70
     1
  9
$TEXTSIZE
 40
3.5
  9
$TRACEWID
 40
1.0
  9
$TEXTSTYLE
  7
Standard
  9
$CLAYER
  8
0
  9
$CELTYPE
  6
ByLayer
  9
$CECOLOR
 62
   256
  9
$CELTSCALE
 40
1.0
  9
$DISPSILH
 70
     0
  9
$DIMSCALE
 40
1.0
  9
$DIMASZ
 40
3.5
  9
$DIMEXO
 40
1.0
  9
$DIMDLI
 40
3.75
  9
$DIMRND
 40
0.0
  9
$DIMDLE
 40
0.0
  9
$DIMEXE
 40
1.0
  9
$DIMTP
 40
0.0
  9
$DIMTM
 40
0.0
  9
$DIMTXT
 40
3.5
  9
$DIMCEN
 40
2.5
  9
$DIMTSZ
 40
0.0
  9
$DIMTOL
 70
     0
  9
$DIMLIM
 70
     0
  9
$DIMTIH
 70
     1
  9
$DIMTOH
 70
     1
  9
$DIMSE1
 70
     0
  9
$DIMSE2
 70
     0
  9
$DIMTAD
 70
     1
  9
$DIMZIN
 70
     0
  9
$DIMBLK
  1

  9
$DIMASO
 70
     1
  9
$DIMSHO
 70
     1
  9
$DIMPOST
  1

  9
$DIMAPOST
  1

  9
$DIMALT
 70
     0
  9
$DIMALTD
 70
     3
  9
$DIMALTF
 40
0.0393700787
  9
$DIMLFAC
 40
1.0
  9
$DIMTOFL
 70
     1
  9
$DIMTVP
 40
0.0
  9
$DIMTIX
 70
     0
  9
$DIMSOXD
 70
     0
  9
$DIMSAH
 70
     0
  9
$DIMBLK1
  1

  9
$DIMBLK2
  1

  9
$DIMSTYLE
  2
ISO-25
  9
$DIMCLRD
 70
     0
  9
$DIMCLRE
 70
     0
  9
$DIMCLRT
 70
     0
  9
$DIMTFAC
 40
1.0
  9
$DIMGAP
 40
1.524
  9
$DIMJUST
 70
     0
  9
$DIMSD1
 70
     0
  9
$DIMSD2
 70
     0
  9
$DIMTOLJ
 70
     0
  9
$DIMTZIN
 70
     0
  9
$DIMALTZ
 70
     0
  9
$DIMALTTZ
 70
     0
  9
$DIMUPT
 70
     0
  9
$DIMDEC
 70
     2
  9
$DIMTDEC
 70
     2
  9
$DIMALTU
 70
     2
  9
$DIMALTTD
 70
     3
  9
$DIMTXSTY
  7
Standard
  9
$DIMAUNIT
 70
     0
  9
$DIMADEC
 70
     2
  9
$DIMALTRND
 40
0.0
  9
$DIMAZIN
 70
     0
  9
$DIMDSEP
 70
    44
  9
$DIMATFIT
 70
     3
  9
$DIMFRAC
 70
     0
  9
$DIMLDRBLK
  1

  9
$DIMLUNIT
 70
     2
  9
$DIMLWD
 70
    -2
  9
$DIMLWE
 70
    -2
  9
$DIMTMOVE
 70
     0
  9
$LUNITS
 70
     2
  9
$LUPREC
 70
     2
  9
$SKETCHINC
 40
1.0
  9
$FILLETRAD
 40
10.0
  9
$AUNITS
 70
     0
  9
$AUPREC
 70
     2
  9
$MENU
  1
.
  9
$ELEVATION
 40
0.0
  9
$PELEVATION
 40
0.0
  9
$THICKNESS
 40
0.0
  9
$LIMCHECK
 70
     0
  9
$CHAMFERA
 40
0.0
  9
$CHAMFERB
 40
0.0
  9
$CHAMFERC
 40
0.0
  9
$CHAMFERD
 40
0.0
  9
$SKPOLY
 70
     0
  9
$TDCREATE
 40
2458985.651214282
  9
$TDUCREATE
 40
2458985.526214282
  9
$TDUPDATE
 40
2458985.651214595
  9
$TDUUPDATE
 40
2458985.526214595
  9
$TDINDWG
 40
0.0000000116
  9
$TDUSRTIMER
 40
0.0000000116
  9
$USRTIMER
 70
     1
  9
$ANGBASE
 50
0.0
  9
$ANGDIR
 70
     0
  9
$PDMODE
 70
     0
  9
$PDSIZE
 40
-1.0
  9
$PLINEWID
 40
0.0
  9
$SPLFRAME
 70
     0
  9
$SPLINETYPE
 70
     6
  9
$SPLINESEGS
 70
     8
  9
$HANDSEED
  5
BF
  9
$SURFTAB1
 70
     6
  9
$SURFTAB2
 70
     6
  9
$SURFTYPE
 70
     6
  9
$SURFU
 70
     6
  9
$SURFV
 70
     6
  9
$UCSBASE
  2

  9
$UCSNAME
  2

  9
$UCSORG
 10
0.0
 20
0.0
 30
0.0
  9
$UCSXDIR
 10
1.0
 20
0.0
 30
0.0
  9
$UCSYDIR
 10
0.0
 20
1.0
 30
0.0
  9
$UCSORTHOREF
  2

  9
$UCSORTHOVIEW
 70
     0
  9
$UCSORGTOP
 10
0.0
 20
0.0
 30
0.0
  9
$UCSORGBOTTOM
 10
0.0
 20
0.0
 30
0.0
  9
$UCSORGLEFT
 10
0.0
 20
0.0
 30
0.0
  9
$UCSORGRIGHT
 10
0.0
 20
0.0
 30
0.0
  9
$UCSORGFRONT
 10
0.0
 20
0.0
 30
0.0
  9
$UCSORGBACK
 10
0.0
 20
0.0
 30
0.0
  9
$PUCSBASE
  2

  9
$PUCSNAME
  2

  9
$PUCSORG
 10
0.0
 20
0.0
 30
0.0
  9
$PUCSXDIR
 10
1.0
 20
0.0
 30
0.0
  9
$PUCSYDIR
 10
0.0
 20
1.0
 30
0.0
  9
$PUCSORTHOREF
  2

  9
$PUCSORTHOVIEW
 70
     0
  9
$PUCSORGTOP
 10
0.0
 20
0.0
 30
0.0
  9
$PUCSORGBOTTOM
 10
0.0
 20
0.0
 30
0.0
  9
$PUCSORGLEFT
 10
0.0
 20
0.0
 30
0.0
  9
$PUCSORGRIGHT
 10
0.0
 20
0.0
 30
0.0
  9
$PUCSORGFRONT
 10
0.0
 20
0.0
 30
0.0
  9
$PUCSORGBACK
 10
0.0
 20
0.0
 30
0.0
  9
$USERI1
 70
     0
  9
$USERI2
 70
     0
  9
$USERI3
 70
     0
  9
$USERI4
 70
     0
  9
$USERI5
 70
     0
  9
$USERR1
 40
0.0
  9
$USERR2
 40
0.0
  9
$USERR3
 40
0.0
  9
$USERR4
 40
0.0
  9
$USERR5
 40
0.0
  9
$WORLDVIEW
 70
     1
  9
$SHADEDGE
 70
     3
  9
$SHADEDIF
 70
    70
  9
$TILEMODE
 70
     1
  9
$MAXACTVP
 70
    64
  9
$PINSBASE
 10
0.0
 20
0.0
 30
0.0
  9
$PLIMCHECK
 70
     0
  9
$PEXTMIN
 10
1.0000000000E+20
 20
1.0000000000E+20
 30
1.0000000000E+20
  9
$PEXTMAX
 10
-1.0000000000E+20
 20
-1.0000000000E+20
 30
-1.0000000000E+20
  9
$PLIMMIN
 10
0.0
 20
0.0
  9
$PLIMMAX
 10
420.0
 20
297.0
  9
$UNITMODE
 70
     0
  9
$VISRETAIN
 70
     1
  9
$PLINEGEN
 70
     0
  9
$PSLTSCALE
 70
     1
  9
$TREEDEPTH
 70
  3020
  9
$CMLSTYLE
  2
Standard
  9
$CMLJUST
 70
     0
  9
$CMLSCALE
 40
20.0
  9
$PROXYGRAPHICS
 70
     1
  9
$MEASUREMENT
 70
     1
  9
$CELWEIGHT
370
    -1
  9
$ENDCAPS
280
     0
  9
$JOINSTYLE
280
     0
  9
$LWDISPLAY
290
     1
  9
$INSUNITS
 70
     4
  9
$HYPERLINKBASE
  1

  9
$STYLESHEET
  1

  9
$XEDIT
290
     1
  9
$CEPSNTYPE
380
     0
  9
$PSTYLEMODE
290
     1
  9
$FINGERPRINTGUID
  2
{ded68b4c-8974-4401-91b9-1cb3bf92058d}
  9
$VERSIONGUID
  2
{FAEB1C32-E019-11D5-929B-00C0DF256EC4}
  9
$EXTNAMES
290
     1
  9
$PSVPSCALE
 40
0.0
  9
$OLESTARTUP
290
     0
  0
ENDSEC
  0
SECTION
  2
CLASSES
  0
CLASS
  1
ACDBDICTIONARYWDFLT
  2
AcDbDictionaryWithDefault
  3
ObjectDBX Classes
 90
        0
280
     0
281
     0
  0
CLASS
  1
VISUALSTYLE
  2
AcDbVisualStyle
  3
ObjectDBX Classes
 90
     4095
280
     0
281
     0
  0
CLASS
  1
MATERIAL
  2
AcDbMaterial
  3
ObjectDBX Classes
 90
     1153
280
     0
281
     0
  0
CLASS
  1
SCALE
  2
AcDbScale
  3
ObjectDBX Classes
 90
     1153
280
     0
281
     0
  0
CLASS
  1
TABLESTYLE
  2
AcDbTableStyle
  3
ObjectDBX Classes
 90
     4095
280
     0
281
     0
  0
CLASS
  1
MLEADERSTYLE
  2
AcDbMLeaderStyle
  3
ACDB_MLEADERSTYLE_CLASS
 90
     4095
280
     0
281
     0
  0
CLASS
  1
SUN
  2
AcDbSun
  3
SCENEOE
 90
     1153
280
     0
281
     0
  0
CLASS
  1
ACDBPLACEHOLDER
  2
AcDbPlaceHolder
  3
ObjectDBX Classes
 90
        0
280
     0
281
     0
  0
CLASS
  1
LAYOUT
  2
AcDbLayout
  3
ObjectDBX Classes
 90
        0
280
     0
281
     0
  0
ENDSEC
  0
SECTION
  2
TABLES
  0
TABLE
  2
VPORT
  5
8
330
0
100
AcDbSymbolTable
 70
     1
  0
VPORT
  5
29
330
8
100
AcDbSymbolTableRecord
100
AcDbViewportTableRecord
  2
*Active
 70
     0
 10
0.0
 20
0.0
 11
1.0
 21
1.0
 12
139.7
 22
107.95
 13
0.0
 23
0.0
 14
10.0
 24
10.0
 15
10.0
 25
10.0
 16
0.0
 26
0.0
 36
1.0
 17
0.0
 27
0.0
 37
0.0
 40
215.9
 41
1.2941176471
 42
50.0
 43
0.0
 44
0.0
 50
0.0
 51
0.0
 71
     0
 72
  2000
 73
     1
 74
     3
 75
     0
 76
     0
 77
     0
 78
     0
281
     0
 65
     1
110
0.0
120
0.0
130
0.0
111
1.0
121
0.0
131
0.0
112
0.0
122
1.0
132
0.0
 79
     0
146
0.0
  0
ENDTAB
  0
TABLE
  2
LTYPE
  5
5
330
0
100
AcDbSymbolTable
 70
     6
  0
LTYPE
  5
14
330
5
100
AcDbSymbolTableRecord
100
AcDbLinetypeTableRecord
  2
ByBlock
 70
     0
  3

 72
    65
 73
     0
 40
0.0
  0
LTYPE
  5
15
330
5
100
AcDbSymbolTableRecord
100
AcDbLinetypeTableRecord
  2
ByLayer
 70
     0
  3

 72
    65
 73
     0
 40
0.0
  0
LTYPE
  5
16
330
5
100
AcDbSymbolTableRecord
100
AcDbLinetypeTableRecord
  2
Continuous
 70
     0
  3
Solid line
 72
    65
 73
     0
 40
0.0
  0
LTYPE
  5
6E
330
5
100
AcDbSymbolTableRecord
100
AcDbLinetypeTableRecord
  2
HIDDEN
 70
     0
  3
Hidden __ __ __ __ __ __ __ __ __ __ __ __ __ __
 72
    65
 73
     2
 40
1.905
 49
1.27
 74
     0
 49
-0.635
 74
     0
  0
LTYPE
  5
6F
330
5
100
AcDbSymbolTableRecord
100
AcDbLinetypeTableRecord
  2
PHANTOM
 70
     0
  3
Phantom ______  __  __  ______  __  __  ______
 72
    65
 73
     6
 40
12.7
 49
6.35
 74
     0
 49
-1.27
 74
     0
 49
1.27
 74
     0
 49
-1.27
 74
     0
 49
1.27
 74
     0
 49
-1.27
 74
     0
  0
LTYPE
  5
70
330
5
100
AcDbSymbolTableRecord
100
AcDbLinetypeTableRecord
  2
CENTER
 70
     0
  3
Center ____ _ ____ _ ____ _ ____ _ ____ _ ____
 72
    65
 73
     4
 40
10.16
 49
6.35
 74
     0
 49
-1.27
 74
     0
 49
1.27
 74
     0
 49
-1.27
 74
     0
  0
LTYPE
  5
71
330
5
100
AcDbSymbolTableRecord
100
AcDbLinetypeTableRecord
  2
CENTERX2
 70
     0
  3
Center (2x) ________  __  ________  __  _____
 72
    65
 73
     4
 40
20.32
 49
12.7
 74
     0
 49
-2.54
 74
     0
 49
2.54
 74
     0
 49
-2.54
 74
     0
  0
LTYPE
  5
72
330
5
100
AcDbSymbolTableRecord
100
AcDbLinetypeTableRecord
  2
DOT2
 70
     0
  3
Dot (.5x) ........................................
 72
    65
 73
     2
 40
0.635
 49
0.0
 74
     0
 49
-0.635
 74
     0
  0
ENDTAB
  0
TABLE
  2
LAYER
  5
2
330
0
100
AcDbSymbolTable
 70
    17
  0
LAYER
  5
10
330
2
100
AcDbSymbolTableRecord
100
AcDbLayerTableRecord
  2
0
 70
     0
 62
     7
  6
Continuous
370
    -3
390
F
  0
LAYER
  5
73
330
2
100
AcDbSymbolTableRecord
100
AcDbLayerTableRecord
  2
FORMAT
 70
     0
 62
     7
  6
Continuous
370
    -3
390
F
  0
LAYER
  5
74
330
2
100
AcDbSymbolTableRecord
100
AcDbLayerTableRecord
  2
YARDIMCI_GEOMETRI
 70
     0
 62
    -6
  6
Continuous
290
     0
370
    -3
390
F
  0
LAYER
  5
75
330
2
100
AcDbSymbolTableRecord
100
AcDbLayerTableRecord
  2
SAYFA_CERCEVESI
 70
     0
 62
     7
  6
Continuous
370
    25
390
F
  0
LAYER
  5
76
330
2
100
AcDbSymbolTableRecord
100
AcDbLayerTableRecord
  2
ANTET
 70
     0
 62
     7
  6
Continuous
370
    -3
390
F
  0
LAYER
  5
77
330
2
100
AcDbSymbolTableRecord
100
AcDbLayerTableRecord
  2
OLCU
 70
     0
 62
   150
  6
Continuous
370
    -3
390
F
  0
LAYER
  5
78
330
2
100
AcDbSymbolTableRecord
100
AcDbLayerTableRecord
  2
METIN
 70
     0
 62
    96
  6
Continuous
370
    -3
390
F
  0
LAYER
  5
79
330
2
100
AcDbSymbolTableRecord
100
AcDbLayerTableRecord
  2
BALON
 70
     0
 62
     5
  6
Continuous
370
    -3
390
F
  0
LAYER
  5
7A
330
2
100
AcDbSymbolTableRecord
100
AcDbLayerTableRecord
  2
VURGU
 70
     0
 62
     7
  6
Continuous
370
    -3
390
F
  0
LAYER
  5
7B
330
2
100
AcDbSymbolTableRecord
100
AcDbLayerTableRecord
  2
SILIK
 70
     0
 62
     7
  6
Continuous
370
    -3
390
F
  0
LAYER
  5
7C
330
2
100
AcDbSymbolTableRecord
100
AcDbLayerTableRecord
  2
MODEL
 70
     0
 62
     7
  6
Continuous
370
    -3
390
F
  0
LAYER
  5
7D
330
2
100
AcDbSymbolTableRecord
100
AcDbLayerTableRecord
  2
DETAYLANDıRMA
 70
     0
 62
   190
  6
Continuous
370
    -3
390
F
  0
LAYER
  5
7E
330
2
100
AcDbSymbolTableRecord
100
AcDbLayerTableRecord
  2
TOLERANS
 70
     0
 62
   230
  6
Continuous
370
    -3
390
F
  0
LAYER
  5
7F
330
2
100
AcDbSymbolTableRecord
100
AcDbLayerTableRecord
  2
MERKEZ_CIZGILERI
 70
     0
 62
    30
  6
Continuous
370
    -3
390
F
  0
LAYER
  5
80
330
2
100
AcDbSymbolTableRecord
100
AcDbLayerTableRecord
  2
KESIT-DETAY_CIZGILERI
 70
     0
 62
     7
  6
Continuous
370
    -3
390
F
  0
LAYER
  5
81
330
2
100
AcDbSymbolTableRecord
100
AcDbLayerTableRecord
  2
\U+041E\U+0421\U+0415\U+0412\U+042B\U+0415
 70
     0
 62
     7
  6
Continuous
370
    -3
390
F
  0
LAYER
  5
82
330
2
100
AcDbSymbolTableRecord
100
AcDbLayerTableRecord
  2
\U+0412\U+041E\U+0414\U+042F\U+041D\U+042B\U+0415_\U+0417\U+041D\U+0410\U+041A\U+0418
 70
     0
 62
    11
  6
Continuous
370
    -3
390
F
  0
ENDTAB
  0
TABLE
  2
STYLE
  5
3
330
0
100
AcDbSymbolTable
 70
     1
  0
STYLE
  5
11
330
3
100
AcDbSymbolTableRecord
100
AcDbTextStyleTableRecord
  2
Standard
 70
     0
 40
0.0
 41
1.0
 50
0.0
 71
     0
 42
3.5
  3
txt
  4

  0
ENDTAB
  0
TABLE
  2
VIEW
  5
6
330
0
100
AcDbSymbolTable
 70
     0
  0
ENDTAB
  0
TABLE
  2
UCS
  5
7
330
0
100
AcDbSymbolTable
 70
     0
  0
ENDTAB
  0
TABLE
  2
APPID
  5
9
330
0
100
AcDbSymbolTable
 70
     1
  0
APPID
  5
12
330
9
100
AcDbSymbolTableRecord
100
AcDbRegAppTableRecord
  2
ACAD
 70
     0
  0
ENDTAB
  0
TABLE
  2
DIMSTYLE
  5
A
330
0
100
AcDbSymbolTable
 70
     1
100
AcDbDimStyleTable
  0
DIMSTYLE
105
27
330
A
100
AcDbSymbolTableRecord
100
AcDbDimStyleTableRecord
  2
ISO-25
 70
     0
 41
2.5
 42
0.625
 43
3.75
 44
1.25
 73
     0
 74
     0
 77
     1
 78
     8
140
2.5
141
2.5
143
0.0393700787
147
0.625
171
     3
172
     1
178
     0
271
     2
272
     2
274
     3
278
    44
283
     0
284
     8
340
11
  0
ENDTAB
  0
TABLE
  2
BLOCK_RECORD
  5
1
330
0
100
AcDbSymbolTable
 70
     1
  0
BLOCK_RECORD
  5
1F
330
1
100
AcDbSymbolTableRecord
100
AcDbBlockTableRecord
  2
*Model_Space
340
22
  0
BLOCK_RECORD
  5
1B
330
1
100
AcDbSymbolTableRecord
100
AcDbBlockTableRecord
  2
*Paper_Space
340
1E
  0
BLOCK_RECORD
  5
23
330
1
100
AcDbSymbolTableRecord
100
AcDbBlockTableRecord
  2
*Paper_Space0
340
26
  0
ENDTAB
  0
ENDSEC
  0
SECTION
  2
BLOCKS
  0
BLOCK
  5
20
330
1F
100
AcDbEntity
  8
0
100
AcDbBlockBegin
  2
*Model_Space
 70
     0
 10
0.0
 20
0.0
 30
0.0
  3
*Model_Space
  1

  0
ENDBLK
  5
21
330
1F
100
AcDbEntity
  8
0
100
AcDbBlockEnd
  0
BLOCK
  5
1C
330
1B
100
AcDbEntity
 67
     1
  8
0
100
AcDbBlockBegin
  2
*Paper_Space
 70
     0
 10
0.0
 20
0.0
 30
0.0
  3
*Paper_Space
  1

  0
ENDBLK
  5
1D
330
1B
100
AcDbEntity
 67
     1
  8
0
100
AcDbBlockEnd
  0
BLOCK
  5
24
330
23
100
AcDbEntity
  8
0
100
AcDbBlockBegin
  2
*Paper_Space0
 70
     0
 10
0.0
 20
0.0
 30
0.0
  3
*Paper_Space0
  1

  0
ENDBLK
  5
25
330
23
100
AcDbEntity
  8
0
100
AcDbBlockEnd
  0
ENDSEC
  0
SECTION
  2
ENTITIES
  0
CIRCLE
  5
83
330
1F
100
AcDbEntity
  8
0
  6
Continuous
 62
     7
370
    25
100
AcDbCircle
 10
138.9233179414
 20
110.9504455312
 30
0.0
 40
90.0
  0
CIRCLE
  5
84
330
1F
100
AcDbEntity
  8
0
  6
Continuous
 62
     7
370
    25
100
AcDbCircle
 10
138.9233179414
 20
110.9504455312
 30
0.0
 40
79.29999999999998
  0
CIRCLE
  5
85
330
1F
100
AcDbEntity
  8
0
  6
Continuous
 62
     7
370
    25
100
AcDbCircle
 10
138.9233179414
 20
110.9504455312
 30
0.0
 40
94.0
  0
CIRCLE
  5
86
330
1F
100
AcDbEntity
  8
0
  6
Continuous
 62
     7
370
    25
100
AcDbCircle
 10
138.9233179414
 20
110.9504455312
 30
0.0
 40
106.0
  0
LINE
  5
87
330
1F
100
AcDbEntity
  8
0
  6
Continuous
 62
     7
370
    25
100
AcDbLine
 10
244.9233179414
 20
315.020067864
 30
0.0
 11
244.9233179414
 21
335.020067864
 31
0.0
  0
LINE
  5
88
330
1F
100
AcDbEntity
  8
0
  6
Continuous
 62
     7
370
    25
100
AcDbLine
 10
32.9233179414
 20
335.020067864
 30
0.0
 11
32.9233179414
 21
315.020067864
 31
0.0
  0
LINE
  5
89
330
1F
100
AcDbEntity
  8
0
  6
Continuous
 62
     7
370
    25
100
AcDbLine
 10
232.9233179414
 20
335.020067864
 30
0.0
 11
228.9233179414
 21
357.020067864
 31
0.0
  0
LINE
  5
8A
330
1F
100
AcDbEntity
  8
0
  6
Continuous
 62
     7
370
    25
100
AcDbLine
 10
48.9233179414
 20
357.020067864
 30
0.0
 11
44.9233179414
 21
335.020067864
 31
0.0
  0
LINE
  5
8B
330
1F
100
AcDbEntity
  8
0
  6
Continuous
 62
     7
370
    25
100
AcDbLine
 10
228.9233179414
 20
357.020067864
 30
0.0
 11
228.9233179414
 21
468.020067864
 31
0.0
  0
LINE
  5
8C
330
1F
100
AcDbEntity
  8
0
  6
Continuous
 62
     7
370
    25
100
AcDbLine
 10
48.9233179414
 20
468.020067864
 30
0.0
 11
48.9233179414
 21
357.020067864
 31
0.0
  0
LINE
  5
8D
330
1F
100
AcDbEntity
  8
0
  6
Continuous
 62
     7
370
    25
100
AcDbLine
 10
244.9233179414
 20
315.020067864
 30
0.0
 11
32.9233179414
 21
315.020067864
 31
0.0
  0
LINE
  5
8E
330
1F
100
AcDbEntity
  8
0
  6
Continuous
 62
     7
370
    25
100
AcDbLine
 10
244.9233179414
 20
335.020067864
 30
0.0
 11
32.9233179414
 21
335.020067864
 31
0.0
  0
LINE
  5
8F
330
1F
100
AcDbEntity
  8
0
  6
Continuous
 62
     7
370
    25
100
AcDbLine
 10
228.9233179414
 20
357.020067864
 30
0.0
 11
48.9233179414
 21
357.020067864
 31
0.0
  0
LINE
  5
90
330
1F
100
AcDbEntity
  8
0
  6
Continuous
 62
     7
370
    25
100
AcDbLine
 10
228.9233179414
 20
468.020067864
 30
0.0
 11
48.9233179414
 21
468.020067864
 31
0.0
  0
LINE
  5
91
330
1F
100
AcDbEntity
  8
0
  6
Continuous
 62
     7
370
    25
100
AcDbLine
 10
-86.1295543116
 20
216.9504455312
 30
0.0
 11
-106.1295543116
 21
216.9504455312
 31
0.0
  0
LINE
  5
92
330
1F
100
AcDbEntity
  8
0
  6
Continuous
 62
     7
370
    25
100
AcDbLine
 10
-106.1295543116
 20
4.9504455312
 30
0.0
 11
-86.1295543116
 21
4.9504455312
 31
0.0
  0
LINE
  5
93
330
1F
100
AcDbEntity
  8
0
  6
Continuous
 62
     7
370
    25
100
AcDbLine
 10
-106.1295543116
 20
204.9504455312
 30
0.0
 11
-128.1295543116
 21
200.9504455312
 31
0.0
  0
LINE
  5
94
330
1F
100
AcDbEntity
  8
0
  6
Continuous
 62
     7
370
    25
100
AcDbLine
 10
-128.1295543116
 20
20.9504455312
 30
0.0
 11
-106.1295543116
 21
16.9504455312
 31
0.0
  0
LINE
  5
95
330
1F
100
AcDbEntity
  8
0
  6
Continuous
 62
     7
370
    25
100
AcDbLine
 10
-128.1295543116
 20
200.9504455312
 30
0.0
 11
-239.1295543116
 21
200.9504455312
 31
0.0
  0
LINE
  5
96
330
1F
100
AcDbEntity
  8
0
  6
Continuous
 62
     7
370
    25
100
AcDbLine
 10
-239.1295543116
 20
20.9504455312
 30
0.0
 11
-128.1295543116
 21
20.9504455312
 31
0.0
  0
LINE
  5
97
330
1F
100
AcDbEntity
  8
0
  6
Continuous
 62
     7
370
    25
100
AcDbLine
 10
-86.1295543116
 20
216.9504455312
 30
0.0
 11
-86.1295543116
 21
4.9504455312
 31
0.0
  0
LINE
  5
98
330
1F
100
AcDbEntity
  8
0
  6
Continuous
 62
     7
370
    25
100
AcDbLine
 10
-106.1295543116
 20
216.9504455312
 30
0.0
 11
-106.1295543116
 21
4.9504455312
 31
0.0
  0
LINE
  5
99
330
1F
100
AcDbEntity
  8
0
  6
Continuous
 62
     7
370
    25
100
AcDbLine
 10
-128.1295543116
 20
200.9504455312
 30
0.0
 11
-128.1295543116
 21
20.9504455312
 31
0.0
  0
LINE
  5
9A
330
1F
100
AcDbEntity
  8
0
  6
Continuous
 62
     7
370
    25
100
AcDbLine
 10
-239.1295543116
 20
200.9504455312
 30
0.0
 11
-239.1295543116
 21
20.9504455312
 31
0.0
  0
LINE
  5
9B
330
1F
100
AcDbEntity
  8
0
  6
Continuous
 62
     7
370
    25
100
AcDbLine
 10
32.9233179414
 20
-88.1582104022
 30
0.0
 11
32.9233179414
 21
-108.1582104022
 31
0.0
  0
LINE
  5
9C
330
1F
100
AcDbEntity
  8
0
  6
Continuous
 62
     7
370
    25
100
AcDbLine
 10
244.9233179414
 20
-108.1582104022
 30
0.0
 11
244.9233179414
 21
-88.1582104022
 31
0.0
  0
LINE
  5
9D
330
1F
100
AcDbEntity
  8
0
  6
Continuous
 62
     7
370
    25
100
AcDbLine
 10
44.9233179414
 20
-108.1582104022
 30
0.0
 11
48.9233179414
 21
-130.1582104022
 31
0.0
  0
LINE
  5
9E
330
1F
100
AcDbEntity
  8
0
  6
Continuous
 62
     7
370
    25
100
AcDbLine
 10
228.9233179414
 20
-130.1582104022
 30
0.0
 11
232.9233179414
 21
-108.1582104022
 31
0.0
  0
LINE
  5
9F
330
1F
100
AcDbEntity
  8
0
  6
Continuous
 62
     7
370
    25
100
AcDbLine
 10
48.9233179414
 20
-130.1582104022
 30
0.0
 11
48.9233179414
 21
-241.1582104022
 31
0.0
  0
LINE
  5
A0
330
1F
100
AcDbEntity
  8
0
  6
Continuous
 62
     7
370
    25
100
AcDbLine
 10
228.9233179414
 20
-241.1582104022
 30
0.0
 11
228.9233179414
 21
-130.1582104022
 31
0.0
  0
LINE
  5
A1
330
1F
100
AcDbEntity
  8
0
  6
Continuous
 62
     7
370
    25
100
AcDbLine
 10
32.9233179414
 20
-88.1582104022
 30
0.0
 11
244.9233179414
 21
-88.1582104022
 31
0.0
  0
LINE
  5
A2
330
1F
100
AcDbEntity
  8
0
  6
Continuous
 62
     7
370
    25
100
AcDbLine
 10
32.9233179414
 20
-108.1582104022
 30
0.0
 11
244.9233179414
 21
-108.1582104022
 31
0.0
  0
LINE
  5
A3
330
1F
100
AcDbEntity
  8
0
  6
Continuous
 62
     7
370
    25
100
AcDbLine
 10
48.9233179414
 20
-130.1582104022
 30
0.0
 11
228.9233179414
 21
-130.1582104022
 31
0.0
  0
LINE
  5
A4
330
1F
100
AcDbEntity
  8
0
  6
Continuous
 62
     7
370
    25
100
AcDbLine
 10
48.9233179414
 20
-241.1582104022
 30
0.0
 11
228.9233179414
 21
-241.1582104022
 31
0.0
  0
LINE
  5
A5
330
1F
100
AcDbEntity
  8
0
  6
Continuous
 62
     7
370
    25
100
AcDbLine
 10
357.9056956339
 20
4.9504455312
 30
0.0
 11
377.9056956339
 21
4.9504455312
 31
0.0
  0
LINE
  5
A6
330
1F
100
AcDbEntity
  8
0
  6
Continuous
 62
     7
370
    25
100
AcDbLine
 10
377.9056956339
 20
216.9504455312
 30
0.0
 11
357.9056956339
 21
216.9504455312
 31
0.0
  0
LINE
  5
A7
330
1F
100
AcDbEntity
  8
0
  6
Continuous
 62
     7
370
    25
100
AcDbLine
 10
377.9056956339
 20
16.9504455312
 30
0.0
 11
399.9056956339
 21
20.9504455312
 31
0.0
  0
LINE
  5
A8
330
1F
100
AcDbEntity
  8
0
  6
Continuous
 62
     7
370
    25
100
AcDbLine
 10
399.9056956339
 20
200.9504455312
 30
0.0
 11
377.9056956339
 21
204.9504455312
 31
0.0
  0
LINE
  5
A9
330
1F
100
AcDbEntity
  8
0
  6
Continuous
 62
     7
370
    25
100
AcDbLine
 10
399.9056956339
 20
20.9504455312
 30
0.0
 11
510.9056956339
 21
20.9504455312
 31
0.0
  0
LINE
  5
AA
330
1F
100
AcDbEntity
  8
0
  6
Continuous
 62
     7
370
    25
100
AcDbLine
 10
510.9056956339
 20
200.9504455312
 30
0.0
 11
399.9056956339
 21
200.9504455312
 31
0.0
  0
LINE
  5
AB
330
1F
100
AcDbEntity
  8
0
  6
Continuous
 62
     7
370
    25
100
AcDbLine
 10
357.9056956339
 20
110.9504455312
 30
0.0
 11
357.9056956339
 21
216.9504455312
 31
0.0
  0
LINE
  5
AC
330
1F
100
AcDbEntity
  8
0
  6
Continuous
 62
     7
370
    25
100
AcDbLine
 10
357.9056956339
 20
4.9504455312
 30
0.0
 11
357.9056956339
 21
110.9504455312
 31
0.0
  0
LINE
  5
AD
330
1F
100
AcDbEntity
  8
0
  6
Continuous
 62
     7
370
    25
100
AcDbLine
 10
377.9056956339
 20
110.9504455312
 30
0.0
 11
377.9056956339
 21
216.9504455312
 31
0.0
  0
LINE
  5
AE
330
1F
100
AcDbEntity
  8
0
  6
Continuous
 62
     7
370
    25
100
AcDbLine
 10
377.9056956339
 20
4.9504455312
 30
0.0
 11
377.9056956339
 21
110.9504455312
 31
0.0
  0
LINE
  5
AF
330
1F
100
AcDbEntity
  8
0
  6
Continuous
 62
     7
370
    25
100
AcDbLine
 10
399.9056956339
 20
110.9504455312
 30
0.0
 11
399.9056956339
 21
200.9504455312
 31
0.0
  0
LINE
  5
B0
330
1F
100
AcDbEntity
  8
0
  6
Continuous
 62
     7
370
    25
100
AcDbLine
 10
399.9056956339
 20
20.9504455312
 30
0.0
 11
399.9056956339
 21
110.9504455312
 31
0.0
  0
LINE
  5
B1
330
1F
100
AcDbEntity
  8
0
  6
Continuous
 62
     7
370
    25
100
AcDbLine
 10
510.9056956339
 20
110.9504455312
 30
0.0
 11
510.9056956339
 21
200.9504455312
 31
0.0
  0
LINE
  5
B2
330
1F
100
AcDbEntity
  8
0
  6
Continuous
 62
     7
370
    25
100
AcDbLine
 10
510.9056956339
 20
20.9504455312
 30
0.0
 11
510.9056956339
 21
110.9504455312
 31
0.0
  0
LINE
  5
B3
330
1F
100
AcDbEntity
  8
0
  6
Continuous
 62
     7
370
    25
100
AcDbLine
 10
455.929984372
 20
-65.1821603505
 30
0.0
 11
377.4411316603
 21
-19.8715101443
 31
0.0
  0
LINE
  5
B4
330
1F
100
AcDbEntity
  8
0
  6
Continuous
 62
     7
370
    25
100
AcDbLine
 10
287.4484457231
 20
-175.7603053729
 30
0.0
 11
365.9372984348
 21
-221.070955579
 31
0.0
  0
LINE
  5
B5
330
1F
100
AcDbEntity
  8
0
  6
Continuous
 62
     7
370
    25
100
AcDbLine
 10
493.6278190429
 20
-68.4699489007
 30
0.0
 11
479.4856834192
 21
-60.3058677825
 31
0.0
  0
LINE
  5
B6
330
1F
100
AcDbEntity
  8
0
  6
Continuous
 62
     7
370
    25
100
AcDbLine
 10
373.4942977598
 20
-243.9082266072
 30
0.0
 11
387.6364333835
 21
-252.0723077254
 31
0.0
  0
LINE
  5
B7
330
1F
100
AcDbEntity
  8
0
  6
Continuous
 62
     7
370
    25
100
AcDbLine
 10
467.0525598886
 20
-67.8853099093
 30
0.0
 11
453.0247475655
 21
-63.5050028414
 31
0.0
  0
LINE
  5
B8
330
1F
100
AcDbEntity
  8
0
  6
Continuous
 62
     7
370
    25
100
AcDbLine
 10
363.0320616283
 20
-219.3937980699
 30
0.0
 11
373.8403594073
 21
-229.35107218
 31
0.0
  0
LWPOLYLINE
  5
B9
330
1F
100
AcDbEntity
  8
0
  6
Continuous
 62
     7
370
    25
100
AcDbPolyline
 90
      125
 70
   128
 43
0.0
 10
268.8051783849
 20
-134.5542727906
 10
268.8868593684
 20
-130.7849791525
 10
269.1316926448
 20
-126.931054381
 10
269.5390497308
 20
-123.0023914456
 10
270.1078849465
 20
-119.0090751679
 10
270.8367381001
 20
-114.9613563334
 10
271.723738236
 20
-110.8696253783
 10
272.7666084375
 20
-106.7443857173
 10
273.9626716718
 20
-102.5962267814
 10
275.3088576617
 20
-98.4357968351
 10
276.8017107672
 20
-94.2737756425
 10
278.4373988556
 20
-90.1208470522
 10
280.2117231392
 20
-85.9876715724
 10
282.1201289529
 20
-81.8848590052
 10
284.1577174464
 20
-77.8229412117
 10
286.3192581593
 20
-73.8123450766
 10
288.5992024474
 20
-69.8633657426
 10
290.9916977267
 20
-65.9861401831
 10
293.4906024959
 20
-62.1906211804
 10
296.0895021024
 20
-58.4865517775
 10
298.7817252082
 20
-54.8834402673
 10
301.5603609151
 20
-51.3905357854
 10
304.4182765052
 20
-48.0168045675
 10
307.3481357501
 20
-44.7709069332
 10
310.3424177431
 20
-41.6611750554
 10
313.3934362054
 20
-38.695591571
 10
316.4933592163
 20
-35.8817690903
 10
319.6342293179
 20
-33.2269306553
 10
322.8079839417
 20
-30.7378911982
 10
326.006476105
 20
-28.4210400476
 10
329.2214953244
 20
-26.2823245271
 10
332.4447886917
 20
-24.3272346889
 10
335.6680820589
 20
-22.5607892204
 10
338.8831012784
 20
-20.9875225619
 10
342.0815934417
 20
-19.6114732663
 10
345.2553480655
 20
-18.4361736325
 10
348.396218167
 20
-17.4646406376
 10
351.4961411779
 20
-16.6993681931
 10
354.5471596402
 20
-16.1423207423
 10
357.5414416333
 20
-15.7949282179
 10
360.4713008782
 20
-15.6580823717
 10
363.3292164683
 20
-15.7321344849
 10
366.1078521752
 20
-16.0168944669
 10
368.800075281
 20
-16.5116313428
 10
371.3989748875
 20
-17.2150751302
 10
373.8978796567
 20
-18.125420099
 10
376.2903749359
 20
-19.2403294066
 10
378.5703192241
 20
-20.556941097
 10
380.731859937
 20
-22.0718754467
 10
382.7694484305
 20
-23.781243641
 10
384.6778542442
 20
-25.6806577564
 10
386.4521785277
 20
-27.7652420239
 10
388.0878666162
 20
-30.0296453456
 10
389.5807197216
 20
-32.4680550308
 10
390.9269057116
 20
-35.0742117167
 10
392.1229689459
 20
-37.8414254365
 10
393.1658391474
 20
-40.7625927923
 10
394.0528392832
 20
-43.8302151893
 10
394.7816924368
 20
-47.0364180849
 10
395.3505276525
 20
-50.3729712021
 10
395.7578847385
 20
-53.8313096571
 10
396.002718015
 20
-57.4025559446
 10
396.0843989985
 20
-61.0775427266
 10
396.002718015
 20
-64.8468363647
 10
395.7578847385
 20
-68.7007611362
 10
395.3505276525
 20
-72.6294240715
 10
394.7816924368
 20
-76.6227403493
 10
394.0528392832
 20
-80.6704591838
 10
393.1658391474
 20
-84.7621901389
 10
392.1229689459
 20
-88.8874297999
 10
390.9269057116
 20
-93.0355887358
 10
389.5807197216
 20
-97.1960186821
 10
388.0878666162
 20
-101.3580398747
 10
386.4521785277
 20
-105.510968465
 10
384.6778542442
 20
-109.6441439448
 10
382.7694484305
 20
-113.746956512
 10
380.731859937
 20
-117.8088743055
 10
378.5703192241
 20
-121.8194704406
 10
376.2903749359
 20
-125.7684497746
 10
373.8978796567
 20
-129.6456753341
 10
371.3989748875
 20
-133.4411943368
 10
368.800075281
 20
-137.1452637397
 10
366.1078521752
 20
-140.7483752499
 10
363.3292164683
 20
-144.2412797318
 10
360.4713008782
 20
-147.6150109497
 10
357.5414416333
 20
-150.860908584
 10
354.5471596402
 20
-153.9706404618
 10
351.4961411779
 20
-156.9362239462
 10
348.396218167
 20
-159.7500464269
 10
345.2553480655
 20
-162.4048848619
 10
342.0815934417
 20
-164.893924319
 10
338.8831012784
 20
-167.2107754696
 10
335.6680820589
 20
-169.3494909901
 10
332.4447886917
 20
-171.3045808283
 10
329.2214953244
 20
-173.0710262968
 10
326.006476105
 20
-174.6442929553
 10
322.8079839417
 20
-176.0203422509
 10
319.6342293179
 20
-177.1956418847
 10
316.4933592163
 20
-178.1671748795
 10
313.3934362054
 20
-178.9324473241
 10
310.3424177431
 20
-179.4894947749
 10
307.3481357501
 20
-179.8368872993
 10
304.4182765052
 20
-179.9737331455
 10
301.5603609151
 20
-179.8996810323
 10
298.7817252082
 20
-179.6149210503
 10
296.0895021024
 20
-179.1201841744
 10
293.4906024959
 20
-178.416740387
 10
290.9916977267
 20
-177.5063954182
 10
288.5992024474
 20
-176.3914861106
 10
286.3192581593
 20
-175.0748744202
 10
284.1577174464
 20
-173.5599400705
 10
282.1201289529
 20
-171.8505718761
 10
280.2117231392
 20
-169.9511577608
 10
278.4373988556
 20
-167.8665734933
 10
276.8017107672
 20
-165.6021701716
 10
275.3088576617
 20
-163.1637604864
 10
273.9626716718
 20
-160.5576038005
 10
272.7666084375
 20
-157.7903900807
 10
271.723738236
 20
-154.8692227249
 10
270.8367381001
 20
-151.8016003279
 10
270.1078849465
 20
-148.5953974323
 10
269.5390497308
 20
-145.2588443151
 10
269.1316926448
 20
-141.8005058601
 10
268.8868593684
 20
-138.2292595726
 10
268.8051783849
 20
-134.5542727906
  0
LWPOLYLINE
  5
BA
330
1F
100
AcDbEntity
  8
0
  6
Continuous
 62
     7
370
    25
100
AcDbPolyline
 90
      117
 70
   128
 43
0.0
 10
276.3712209436
 20
-130.1864893924
 10
276.4534576614
 20
-126.6334295159
 10
276.6999266002
 20
-122.9958428829
 10
277.1099048243
 20
-119.2843991618
 10
277.6821897969
 20
-115.5099846564
 10
278.4151029075
 20
-111.6836703748
 10
279.3064943957
 20
-107.816679556
 10
280.3537496566
 20
-103.9203547505
 10
281.5537969103
 20
-100.0061245502
 10
282.9031162112
 20
-96.0854700666
 10
284.3977497734
 20
-92.169891255
 10
286.0333135792
 20
-88.2708731825
 10
287.8050102381
 20
-84.3998523411
 10
289.7076430585
 20
-80.5681831017
 10
291.7356312905
 20
-76.7871044105
 10
293.8830264953
 20
-73.0677068228
 10
296.1435299928
 20
-69.4208999724
 10
298.5105113366
 20
-65.8573805723
 10
300.9770277627
 20
-62.3876010388
 10
303.5358445535
 20
-59.0217388331
 10
306.1794562583
 20
-55.769666609
 10
308.9001087087
 20
-52.6409232547
 10
311.6898217621
 20
-49.6446859135
 10
314.5404127095
 20
-46.7897430658
 10
317.4435202766
 20
-44.0844687508
 10
320.3906291487
 20
-41.5367980042
 10
323.3730949476
 20
-39.1542035833
 10
326.3821695872
 20
-36.943674048
 10
329.4090269333
 20
-34.9116932623
 10
332.4447886917
 20
-33.0642213761
 10
335.4805504501
 20
-31.4066773425
 10
338.5074077961
 20
-29.9439230239
 10
341.5164824358
 20
-28.6802489307
 10
344.4989482347
 20
-27.6193616368
 10
347.4460571067
 20
-26.7643729074
 10
350.3491646738
 20
-26.1177905717
 10
353.1997556213
 20
-25.6815111671
 10
355.9894686747
 20
-25.4568143764
 10
358.710121125
 20
-25.4443592738
 10
361.3537328299
 20
-25.6441823924
 10
363.9125496206
 20
-26.0556976165
 10
366.3790660468
 20
-26.6776979011
 10
368.7460473906
 20
-27.5083588122
 10
371.006550888
 20
-28.5452438781
 10
373.1539460928
 20
-29.7853117364
 10
375.1819343249
 20
-31.2249250544
 10
377.0845671453
 20
-32.8598611981
 10
378.8562638042
 20
-34.6853246181
 10
380.49182761
 20
-36.6959609157
 10
381.9864611722
 20
-38.8858725483
 10
383.3357804731
 20
-41.2486361277
 10
384.5358277267
 20
-43.7773212611
 10
385.5830829877
 20
-46.4645108795
 10
386.4744744759
 20
-49.3023229926
 10
387.2073875865
 20
-52.2824338087
 10
387.779672559
 20
-55.3961021492
 10
388.1896507831
 20
-58.6341950883
 10
388.436119722
 20
-61.9872147417
 10
388.5183564398
 20
-65.4453261248
 10
388.436119722
 20
-68.9983860013
 10
388.1896507831
 20
-72.6359726343
 10
387.779672559
 20
-76.3474163554
 10
387.2073875865
 20
-80.1218308608
 10
386.4744744759
 20
-83.9481451424
 10
385.5830829877
 20
-87.8151359612
 10
384.5358277267
 20
-91.7114607667
 10
383.3357804731
 20
-95.625690967
 10
381.9864611722
 20
-99.5463454506
 10
380.49182761
 20
-103.4619242622
 10
378.8562638042
 20
-107.3609423347
 10
377.0845671453
 20
-111.2319631761
 10
375.1819343249
 20
-115.0636324155
 10
373.1539460928
 20
-118.8447111067
 10
371.006550888
 20
-122.5641086944
 10
368.7460473906
 20
-126.2109155448
 10
366.3790660468
 20
-129.7744349449
 10
363.9125496206
 20
-133.2442144784
 10
361.3537328299
 20
-136.6100766841
 10
358.710121125
 20
-139.8621489081
 10
355.9894686747
 20
-142.9908922624
 10
353.1997556213
 20
-145.9871296036
 10
350.3491646738
 20
-148.8420724514
 10
347.4460571067
 20
-151.5473467664
 10
344.4989482347
 20
-154.095017513
 10
341.5164824358
 20
-156.4776119339
 10
338.5074077961
 20
-158.6881414692
 10
335.4805504501
 20
-160.7201222548
 10
332.4447886917
 20
-162.5675941411
 10
329.4090269333
 20
-164.2251381747
 10
326.3821695872
 20
-165.6878924933
 10
323.3730949476
 20
-166.9515665865
 10
320.3906291487
 20
-168.0124538804
 10
317.4435202766
 20
-168.8674426098
 10
314.5404127095
 20
-169.5140249455
 10
311.6898217621
 20
-169.9503043501
 10
308.9001087087
 20
-170.1750011408
 10
306.1794562583
 20
-170.1874562434
 10
303.5358445535
 20
-169.9876331248
 10
300.9770277627
 20
-169.5761179007
 10
298.5105113366
 20
-168.9541176161
 10
296.1435299928
 20
-168.123456705
 10
293.8830264953
 20
-167.0865716391
 10
291.7356312905
 20
-165.8465037808
 10
289.7076430585
 20
-164.4068904628
 10
287.8050102381
 20
-162.7719543191
 10
286.0333135792
 20
-160.9464908991
 10
284.3977497734
 20
-158.9358546014
 10
282.9031162112
 20
-156.7459429689
 10
281.5537969103
 20
-154.3831793895
 10
280.3537496566
 20
-151.8544942561
 10
279.3064943957
 20
-149.1673046377
 10
278.4151029075
 20
-146.3294925245
 10
277.6821897969
 20
-143.3493817085
 10
277.1099048243
 20
-140.235713368
 10
276.6999266002
 20
-136.9976204289
 10
276.4534576614
 20
-133.6446007755
 10
276.3712209436
 20
-130.1864893924
  0
LWPOLYLINE
  5
BB
330
1F
100
AcDbEntity
  8
0
  6
Continuous
 62
     7
370
    25
100
AcDbPolyline
 90
       64
 70
   128
 43
0.0
 10
455.929984372
 20
-65.1821603505
 10
457.0591719358
 20
-65.8675913032
 10
459.2207126487
 20
-67.3825256529
 10
461.2583011422
 20
-69.0918938472
 10
463.1667069559
 20
-70.9913079625
 10
464.9410312395
 20
-73.07589223
 10
466.5767193279
 20
-75.3402955518
 10
468.0695724333
 20
-77.778705237
 10
469.4157584233
 20
-80.3848619229
 10
470.6118216576
 20
-83.1520756427
 10
471.6546918591
 20
-86.0732429984
 10
472.541691995
 20
-89.1408653954
 10
473.2705451485
 20
-92.347068291
 10
473.8393803642
 20
-95.6836214083
 10
474.2467374502
 20
-99.1419598633
 10
474.4915707267
 20
-102.7132061508
 10
474.5732517102
 20
-106.3881929327
 10
474.4915707267
 20
-110.1574865708
 10
474.2467374502
 20
-114.0114113424
 10
473.8393803642
 20
-117.9400742777
 10
473.2705451485
 20
-121.9333905554
 10
472.541691995
 20
-125.98110939
 10
471.6546918591
 20
-130.0728403451
 10
470.6118216576
 20
-134.1980800061
 10
469.4157584233
 20
-138.346238942
 10
468.0695724333
 20
-142.5066688882
 10
466.5767193279
 20
-146.6686900809
 10
464.9410312395
 20
-150.8216186712
 10
463.1667069559
 20
-154.954794151
 10
461.2583011422
 20
-159.0576067181
 10
459.2207126487
 20
-163.1195245116
 10
457.0591719358
 20
-167.1301206468
 10
454.7792276476
 20
-171.0790999807
 10
452.3867323684
 20
-174.9563255403
 10
449.8878275992
 20
-178.7518445429
 10
447.2889279927
 20
-182.4559139459
 10
444.5967048869
 20
-186.0590254561
 10
441.81806918
 20
-189.551929938
 10
438.9601535899
 20
-192.9256611559
 10
436.030294345
 20
-196.1715587901
 10
433.0360123519
 20
-199.281290668
 10
429.9849938896
 20
-202.2468741524
 10
426.8850708787
 20
-205.0606966331
 10
423.7442007772
 20
-207.715535068
 10
420.5704461534
 20
-210.2045745251
 10
417.3719539901
 20
-212.5214256757
 10
414.1569347706
 20
-214.6601411962
 10
410.9336414034
 20
-216.6152310345
 10
407.7103480361
 20
-218.3816765029
 10
404.4953288167
 20
-219.9549431614
 10
401.2968366534
 20
-221.330992457
 10
398.1230820296
 20
-222.5062920909
 10
394.982211928
 20
-223.4778250857
 10
391.8822889171
 20
-224.2430975302
 10
388.8312704548
 20
-224.8001449811
 10
385.8369884618
 20
-225.1475375054
 10
382.9071292169
 20
-225.2843833517
 10
380.0492136268
 20
-225.2103312384
 10
377.2705779199
 20
-224.9255712565
 10
374.5783548141
 20
-224.4308343806
 10
371.9794552076
 20
-223.7273905932
 10
369.4805504384
 20
-222.8170456244
 10
367.0880551591
 20
-221.7021363167
 10
365.9372984348
 20
-221.070955579
  0
LWPOLYLINE
  5
BC
330
1F
100
AcDbEntity
  8
0
  6
Continuous
 62
     7
370
    25
100
AcDbPolyline
 90
       69
 70
   128
 43
0.0
 10
493.6278190429
 20
-68.4699489007
 10
495.4628276017
 20
-69.6053034676
 10
497.7979115166
 20
-71.2899358251
 10
500.0073326288
 20
-73.1701681552
 10
502.0862341512
 20
-75.2418672991
 10
504.030046207
 20
-77.5004792125
 10
505.8344958756
 20
-79.9410389762
 10
507.4956165848
 20
-82.5581817102
 10
509.0097568309
 20
-85.3461543667
 10
510.373588205
 20
-88.2988283769
 10
511.5841127098
 20
-91.4097131223
 10
512.6386693497
 20
-94.6719702033
 10
513.5349399802
 20
-98.0784284706
 10
514.2709544041
 20
-101.6215997898
 10
514.8450947019
 20
-105.2936955013
 10
515.2560987886
 20
-109.0866435418
 10
515.5030631881
 20
-112.9921061884
 10
515.585445019
 20
-117.0014983864
 10
515.5030631881
 20
-121.1060066218
 10
515.2560987886
 20
-125.2966082946
 10
514.8450947019
 20
-129.5640915529
 10
514.2709544041
 20
-133.8990755423
 10
513.5349399802
 20
-138.2920310272
 10
512.6386693497
 20
-142.733301338
 10
511.5841127098
 20
-147.2131235987
 10
510.373588205
 20
-151.7216501877
 10
509.0097568309
 20
-156.2489703851
 10
507.4956165848
 20
-160.7851321586
 10
505.8344958756
 20
-165.32016404
 10
504.030046207
 20
-169.8440970452
 10
502.0862341512
 20
-174.3469865875
 10
500.0073326288
 20
-178.8189343384
 10
497.7979115166
 20
-183.2501099862
 10
495.4628276017
 20
-187.6307728453
 10
493.0072139053
 20
-191.9512932678
 10
490.4364683992
 20
-196.2021738123
 10
487.7562421401
 20
-200.3740701207
 10
484.9724268469
 20
-204.4578114596
 10
482.0911419498
 20
-208.4444208791
 10
479.1187211383
 20
-212.3251349465
 10
476.0616984384
 20
-216.0914230102
 10
472.9267938496
 20
-219.7350059515
 10
469.7208985725
 20
-223.2478743844
 10
466.4510598606
 20
-226.6223062617
 10
463.1244655291
 20
-229.8508838498
 10
459.7484281543
 20
-232.9265100344
 10
456.3303689991
 20
-235.8424239217
 10
452.8778016993
 20
-238.5922157001
 10
449.398315747
 20
-241.1698407305
 10
445.8995598077
 20
-243.5696328337
 10
442.3892249061
 20
-245.7863167458
 10
438.8750275203
 20
-247.8150197145
 10
435.3646926188
 20
-249.6512822103
 10
431.8659366794
 20
-251.2910677299
 10
428.3864507272
 20
-252.7307716686
 10
424.9338834273
 20
-253.9672292449
 10
421.5158242721
 20
-254.9977224566
 10
418.1397868973
 20
-255.819986056
 10
414.8131925658
 20
-256.4322125293
 10
411.543353854
 20
-256.8330560698
 10
408.3374585768
 20
-257.0216355363
 10
405.202553988
 20
-256.9975363903
 10
402.1455312882
 20
-256.760811607
 10
399.1731104767
 20
-256.3119815588
 10
396.2918255796
 20
-255.6520328716
 10
393.5080102863
 20
-254.7824162557
 10
390.8277840272
 20
-253.7050433173
 10
388.2570385212
 20
-252.4222823559
 10
387.6364333835
 20
-252.0723077254
  0
LWPOLYLINE
  5
BD
330
1F
100
AcDbEntity
  8
0
  6
Continuous
 62
     7
370
    25
100
AcDbPolyline
 90
       93
 70
   128
 43
0.0
 10
443.4840582568
 20
-57.9972801387
 10
445.6062925306
 20
-57.3804530512
 10
448.9823299054
 20
-56.5581894518
 10
452.3089242369
 20
-55.9459629785
 10
455.5787629488
 20
-55.5451194381
 10
458.7846582259
 20
-55.3565399715
 10
461.9195628147
 20
-55.3806391175
 10
464.9765855146
 20
-55.6173639008
 10
467.949006326
 20
-56.066193949
 10
470.8302912232
 20
-56.7261426363
 10
473.6141065164
 20
-57.5957592521
 10
476.2943327755
 20
-58.6731321905
 10
478.8650782815
 20
-59.955893152
 10
481.3206919779
 20
-61.4412223494
 10
483.6557758928
 20
-63.1258547069
 10
485.8651970051
 20
-65.006087037
 10
487.9440985274
 20
-67.0777861809
 10
489.8879105833
 20
-69.3363980943
 10
491.6923602518
 20
-71.776957858
 10
493.3534809611
 20
-74.3941005919
 10
494.8676212072
 20
-77.1820732485
 10
496.2314525813
 20
-80.1347472586
 10
497.4419770861
 20
-83.2456320041
 10
498.4965337259
 20
-86.507889085
 10
499.3928043565
 20
-89.9143473524
 10
500.1288187804
 20
-93.4575186716
 10
500.7029590782
 20
-97.1296143831
 10
501.1139631649
 20
-100.9225624236
 10
501.3609275644
 20
-104.8280250701
 10
501.4433093953
 20
-108.8374172682
 10
501.3609275644
 20
-112.9419255036
 10
501.1139631649
 20
-117.1325271764
 10
500.7029590782
 20
-121.4000104347
 10
500.1288187804
 20
-125.7349944241
 10
499.3928043565
 20
-130.127949909
 10
498.4965337259
 20
-134.5692202197
 10
497.4419770861
 20
-139.0490424804
 10
496.2314525813
 20
-143.5575690695
 10
494.8676212072
 20
-148.0848892669
 10
493.3534809611
 20
-152.6210510403
 10
491.6923602518
 20
-157.1560829218
 10
489.8879105833
 20
-161.680015927
 10
487.9440985274
 20
-166.1829054692
 10
485.865197005
 20
-170.6548532201
 10
483.6557758928
 20
-175.086028868
 10
481.3206919779
 20
-179.4666917271
 10
478.8650782815
 20
-183.7872121496
 10
476.2943327755
 20
-188.0380926941
 10
473.6141065164
 20
-192.2099890025
 10
470.8302912232
 20
-196.2937303413
 10
467.949006326
 20
-200.2803397608
 10
464.9765855146
 20
-204.1610538283
 10
461.9195628147
 20
-207.927341892
 10
458.7846582259
 20
-211.5709248333
 10
455.5787629488
 20
-215.0837932662
 10
452.3089242369
 20
-218.4582251435
 10
448.9823299054
 20
-221.6868027316
 10
445.6062925306
 20
-224.7624289162
 10
442.1882333754
 20
-227.6783428035
 10
438.7356660755
 20
-230.4281345819
 10
435.2561801233
 20
-233.0057596123
 10
431.757424184
 20
-235.4055517155
 10
428.2470892824
 20
-237.6222356276
 10
424.7328918966
 20
-239.6509385962
 10
421.222556995
 20
-241.4872010921
 10
417.7238010557
 20
-243.1269866116
 10
414.2443151035
 20
-244.5666905504
 10
410.7917478036
 20
-245.8031481267
 10
407.3736886484
 20
-246.8336413384
 10
403.9976512736
 20
-247.6559049378
 10
400.6710569421
 20
-248.2681314111
 10
397.4012182302
 20
-248.6689749515
 10
394.1953229531
 20
-248.8575544181
 10
391.0604183643
 20
-248.8334552721
 10
388.0033956644
 20
-248.5967304888
 10
385.0309748529
 20
-248.1479004406
 10
382.1496899558
 20
-247.4879517533
 10
379.3658746626
 20
-246.6183351375
 10
376.6856484035
 20
-245.5409621991
 10
374.1149028975
 20
-244.2582012376
 10
371.6592892011
 20
-242.7728720402
 10
369.3242052861
 20
-241.0882396827
 10
367.1147841739
 20
-239.2080073526
 10
365.0358826515
 20
-237.1363082087
 10
363.0920705957
 20
-234.8776962954
 10
361.2876209272
 20
-232.4371365317
 10
359.6265002179
 20
-229.8199937977
 10
358.1123599718
 20
-227.0320211411
 10
356.7485285977
 20
-224.079347131
 10
355.5380040929
 20
-220.9684623855
 10
354.4834474531
 20
-217.7062053046
 10
353.5871768225
 20
-214.2997470372
 10
353.4913723196
 20
-213.8860753672
  0
LWPOLYLINE
  5
BE
330
1F
100
AcDbEntity
  8
0
  6
Continuous
 62
     7
370
    25
100
AcDbPolyline
 90
       70
 70
   128
 43
0.0
 10
467.0525598886
 20
-67.8853099093
 10
469.5636831337
 20
-68.7839167721
 10
472.0144593257
 20
-69.900464688
 10
474.3538295141
 20
-71.2181858869
 10
476.5760688681
 20
-72.733855684
 10
478.6757391955
 20
-74.4437649815
 10
480.6477022512
 20
-76.3437293447
 10
482.4871323112
 20
-78.4290992424
 10
484.1895279818
 20
-80.6947714251
 10
485.7507232157
 20
-83.1352014133
 10
487.1668975064
 20
-85.7444170658
 10
488.4345852382
 20
-88.5160331947
 10
489.5506841667
 20
-91.4432671909
 10
490.5124630109
 20
-94.5189556223
 10
491.3175681367
 20
-97.7355717639
 10
491.964029317
 20
-101.085244017
 10
492.450264553
 20
-104.5597751723
 10
492.7750839455
 20
-108.1506624697
 10
492.9376926071
 20
-111.8491184065
 10
492.9376926071
 20
-115.646092241
 10
492.7750839455
 20
-119.5322921422
 10
492.450264553
 20
-123.4982079275
 10
491.964029317
 20
-127.5341343366
 10
491.3175681367
 20
-131.6301947811
 10
490.5124630109
 20
-135.7763655149
 10
489.5506841667
 20
-139.9625001632
 10
488.4345852382
 20
-144.1783545533
 10
487.1668975064
 20
-148.4136117828
 10
485.7507232157
 20
-152.6579074678
 10
484.1895279818
 20
-156.9008551053
 10
482.4871323112
 20
-161.1320714916
 10
480.6477022512
 20
-165.341202131
 10
478.6757391955
 20
-169.5179465757
 10
476.5760688681
 20
-173.652083632
 10
474.3538295141
 20
-177.7334963738
 10
472.0144593257
 20
-181.7521969003
 10
469.5636831337
 20
-185.6983507777
 10
467.0074983982
 20
-189.5623011063
 10
464.3521605314
 20
-193.3345921521
 10
461.6041675902
 20
-197.0059924869
 10
458.7702443737
 20
-200.5675175788
 10
455.8573259669
 20
-204.010451779
 10
452.8725407694
 20
-207.3263696507
 10
449.8231930506
 20
-210.5071565872
 10
446.7167450754
 20
-213.5450286697
 10
443.5607988425
 20
-216.4325517164
 10
440.3630774813
 20
-219.1626594744
 10
437.1314063517
 20
-221.7286709125
 10
433.8736938946
 20
-224.1243065708
 10
430.5979122781
 20
-226.3437039273
 10
427.312077889
 20
-228.3814317449
 10
424.0242317144
 20
-230.2325033621
 10
420.742419665
 20
-231.8923888964
 10
417.4746728848
 20
-233.3570263299
 10
414.2289880977
 20
-234.6228314492
 10
411.0133080383
 20
-235.6867066172
 10
407.8355020145
 20
-236.546048353
 10
404.7033466503
 20
-237.1987537034
 10
401.6245068546
 20
-237.643225389
 10
398.6065170643
 20
-237.8783757131
 10
395.6567628063
 20
-237.9036292236
 10
392.7824626234
 20
-237.7189241207
 10
389.9906504098
 20
-237.3247124089
 10
387.2881581979
 20
-236.7219587903
 10
384.681599439
 20
-235.912138304
 10
382.1773528191
 20
-234.8972327163
 10
379.7815466494
 20
-233.6797256715
 10
377.500043869
 20
-232.2625966131
 10
375.3384276976
 20
-230.6493134935
 10
373.8403594073
 20
-229.35107218
  0
ENDSEC
  0
SECTION
  2
OBJECTS
  0
DICTIONARY
  5
C
330
0
100
AcDbDictionary
281
     1
  3
ACAD_GROUP
350
D
  3
ACAD_LAYOUT
350
1A
  3
ACAD_MLINESTYLE
350
17
  3
ACAD_PLOTSETTINGS
350
19
  3
ACAD_PLOTSTYLENAME
350
E
  3
ACAD_SCALELIST
350
47
  0
DICTIONARY
  5
D
102
{ACAD_REACTORS
330
C
102
}
330
C
100
AcDbDictionary
281
     1
  0
DICTIONARY
  5
1A
102
{ACAD_REACTORS
330
C
102
}
330
C
100
AcDbDictionary
281
     1
  3
Layout1
350
1E
  3
Layout2
350
26
  3
Model
350
22
  0
DICTIONARY
  5
17
102
{ACAD_REACTORS
330
C
102
}
330
C
100
AcDbDictionary
281
     1
  3
Standard
350
18
  0
DICTIONARY
  5
19
102
{ACAD_REACTORS
330
C
102
}
330
C
100
AcDbDictionary
281
     1
  0
ACDBDICTIONARYWDFLT
  5
E
102
{ACAD_REACTORS
330
C
102
}
330
C
100
AcDbDictionary
281
     1
  3
Normal
350
F
100
AcDbDictionaryWithDefault
340
F
  0
DICTIONARY
  5
47
102
{ACAD_REACTORS
330
C
102
}
330
C
100
AcDbDictionary
281
     1
  3
A0
350
48
  3
A1
350
49
  3
A2
350
4A
  3
A3
350
4B
  3
A4
350
4C
  3
A5
350
4D
  3
A6
350
4E
  3
A7
350
4F
  3
A8
350
50
  3
A9
350
51
  3
B0
350
52
  3
B1
350
53
  3
B2
350
54
  3
B3
350
55
  3
B4
350
56
  3
B5
350
57
  3
B6
350
58
  3
B7
350
59
  3
B8
350
5A
  3
B9
350
5B
  3
C0
350
5C
  3
C1
350
5D
  3
C2
350
5E
  3
C3
350
5F
  3
C4
350
60
  3
C5
350
61
  3
C6
350
62
  3
C7
350
63
  3
C8
350
64
  3
C9
350
65
  3
D0
350
66
  3
D1
350
67
  3
D2
350
68
  0
LAYOUT
  5
1E
102
{ACAD_REACTORS
330
1A
102
}
330
1A
100
AcDbPlotSettings
  1

  2
none_device
  4

  6

 40
0.0
 41
0.0
 42
0.0
 43
0.0
 44
0.0
 45
0.0
 46
0.0
 47
0.0
 48
0.0
 49
0.0
140
0.0
141
0.0
142
1.0
143
1.0
 70
   688
 72
     1
 73
     0
 74
     5
  7

 75
    16
147
1.0
148
0.0
149
0.0
100
AcDbLayout
  1
Layout1
 70
     1
 71
     1
 10
0.0
 20
0.0
 11
420.0
 21
297.0
 12
0.0
 22
0.0
 32
0.0
 14
1.0000000000E+20
 24
1.0000000000E+20
 34
1.0000000000E+20
 15
-1.0000000000E+20
 25
-1.0000000000E+20
 35
-1.0000000000E+20
146
0.0
 13
0.0
 23
0.0
 33
0.0
 16
1.0
 26
0.0
 36
0.0
 17
0.0
 27
1.0
 37
0.0
 76
     0
330
1B
  0
LAYOUT
  5
26
102
{ACAD_REACTORS
330
1A
102
}
330
1A
100
AcDbPlotSettings
  1

  2
none_device
  4

  6

 40
0.0
 41
0.0
 42
0.0
 43
0.0
 44
0.0
 45
0.0
 46
0.0
 47
0.0
 48
0.0
 49
0.0
140
0.0
141
0.0
142
1.0
143
1.0
 70
   688
 72
     1
 73
     0
 74
     5
  7

 75
    16
147
1.0
148
0.0
149
0.0
100
AcDbLayout
  1
Layout2
 70
     1
 71
     2
 10
0.0
 20
0.0
 11
0.0
 21
0.0
 12
0.0
 22
0.0
 32
0.0
 14
0.0
 24
0.0
 34
0.0
 15
0.0
 25
0.0
 35
0.0
146
0.0
 13
0.0
 23
0.0
 33
0.0
 16
1.0
 26
0.0
 36
0.0
 17
0.0
 27
1.0
 37
0.0
 76
     0
330
23
  0
LAYOUT
  5
22
102
{ACAD_REACTORS
330
1A
102
}
330
1A
100
AcDbPlotSettings
  1

  2
none_device
  4
Letter_(8.50_x_11.00_Inches)
  6

 40
6.35
 41
6.35
 42
6.35000508
 43
6.35000508
 44
215.9
 45
279.4
 46
0.0
 47
0.0
 48
0.0
 49
0.0
140
0.0
141
0.0
142
1.0
143
1.0
 70
  1712
 72
     1
 73
     0
 74
     0
  7

 75
     0
147
1.0
148
0.0
149
0.0
100
AcDbLayout
  1
Model
 70
     1
 71
     0
 10
0.0
 20
0.0
 11
279.4
 21
215.9
 12
0.0
 22
0.0
 32
0.0
 14
0.0
 24
0.0
 34
0.0
 15
279.4
 25
215.9
 35
0.0
146
0.0
 13
0.0
 23
0.0
 33
0.0
 16
1.0
 26
0.0
 36
0.0
 17
0.0
 27
1.0
 37
0.0
 76
     0
330
1F
331
29
  0
MLINESTYLE
  5
18
102
{ACAD_REACTORS
330
17
102
}
330
17
100
AcDbMlineStyle
  2
Standard
 70
     0
  3

 62
   256
 51
90.0
 52
90.0
 71
     2
 49
0.5
 62
   256
  6
BYLAYER
 49
-0.5
 62
   256
  6
BYLAYER
  0
ACDBPLACEHOLDER
  5
F
102
{ACAD_REACTORS
330
E
102
}
330
E
  0
SCALE
  5
48
102
{ACAD_REACTORS
330
47
102
}
330
47
100
AcDbScale
 70
     0
300
1:1
140
1.0
141
1.0
290
     1
  0
SCALE
  5
49
102
{ACAD_REACTORS
330
47
102
}
330
47
100
AcDbScale
 70
     0
300
1:2
140
1.0
141
2.0
290
     0
  0
SCALE
  5
4A
102
{ACAD_REACTORS
330
47
102
}
330
47
100
AcDbScale
 70
     0
300
1:4
140
1.0
141
4.0
290
     0
  0
SCALE
  5
4B
102
{ACAD_REACTORS
330
47
102
}
330
47
100
AcDbScale
 70
     0
300
1:5
140
1.0
141
5.0
290
     0
  0
SCALE
  5
4C
102
{ACAD_REACTORS
330
47
102
}
330
47
100
AcDbScale
 70
     0
300
1:8
140
1.0
141
8.0
290
     0
  0
SCALE
  5
4D
102
{ACAD_REACTORS
330
47
102
}
330
47
100
AcDbScale
 70
     0
300
1:10
140
1.0
141
10.0
290
     0
  0
SCALE
  5
4E
102
{ACAD_REACTORS
330
47
102
}
330
47
100
AcDbScale
 70
     0
300
1:16
140
1.0
141
16.0
290
     0
  0
SCALE
  5
4F
102
{ACAD_REACTORS
330
47
102
}
330
47
100
AcDbScale
 70
     0
300
1:20
140
1.0
141
20.0
290
     0
  0
SCALE
  5
50
102
{ACAD_REACTORS
330
47
102
}
330
47
100
AcDbScale
 70
     0
300
1:30
140
1.0
141
30.0
290
     0
  0
SCALE
  5
51
102
{ACAD_REACTORS
330
47
102
}
330
47
100
AcDbScale
 70
     0
300
1:40
140
1.0
141
40.0
290
     0
  0
SCALE
  5
52
102
{ACAD_REACTORS
330
47
102
}
330
47
100
AcDbScale
 70
     0
300
1:50
140
1.0
141
50.0
290
     0
  0
SCALE
  5
53
102
{ACAD_REACTORS
330
47
102
}
330
47
100
AcDbScale
 70
     0
300
1:100
140
1.0
141
100.0
290
     0
  0
SCALE
  5
54
102
{ACAD_REACTORS
330
47
102
}
330
47
100
AcDbScale
 70
     0
300
2:1
140
2.0
141
1.0
290
     0
  0
SCALE
  5
55
102
{ACAD_REACTORS
330
47
102
}
330
47
100
AcDbScale
 70
     0
300
4:1
140
4.0
141
1.0
290
     0
  0
SCALE
  5
56
102
{ACAD_REACTORS
330
47
102
}
330
47
100
AcDbScale
 70
     0
300
8:1
140
8.0
141
1.0
290
     0
  0
SCALE
  5
57
102
{ACAD_REACTORS
330
47
102
}
330
47
100
AcDbScale
 70
     0
300
10:1
140
10.0
141
1.0
290
     0
  0
SCALE
  5
58
102
{ACAD_REACTORS
330
47
102
}
330
47
100
AcDbScale
 70
     0
300
100:1
140
100.0
141
1.0
290
     0
  0
SCALE
  5
59
102
{ACAD_REACTORS
330
47
102
}
330
47
100
AcDbScale
 70
     0
300
1/128" = 1'-0"
140
0.0078125
141
12.0
290
     0
  0
SCALE
  5
5A
102
{ACAD_REACTORS
330
47
102
}
330
47
100
AcDbScale
 70
     0
300
1/64" = 1'-0"
140
0.015625
141
12.0
290
     0
  0
SCALE
  5
5B
102
{ACAD_REACTORS
330
47
102
}
330
47
100
AcDbScale
 70
     0
300
1/32" = 1'-0"
140
0.03125
141
12.0
290
     0
  0
SCALE
  5
5C
102
{ACAD_REACTORS
330
47
102
}
330
47
100
AcDbScale
 70
     0
300
1/16" = 1'-0"
140
0.0625
141
12.0
290
     0
  0
SCALE
  5
5D
102
{ACAD_REACTORS
330
47
102
}
330
47
100
AcDbScale
 70
     0
300
3/32" = 1'-0"
140
0.09375
141
12.0
290
     0
  0
SCALE
  5
5E
102
{ACAD_REACTORS
330
47
102
}
330
47
100
AcDbScale
 70
     0
300
1/8" = 1'-0"
140
0.125
141
12.0
290
     0
  0
SCALE
  5
5F
102
{ACAD_REACTORS
330
47
102
}
330
47
100
AcDbScale
 70
     0
300
3/16" = 1'-0"
140
0.1875
141
12.0
290
     0
  0
SCALE
  5
60
102
{ACAD_REACTORS
330
47
102
}
330
47
100
AcDbScale
 70
     0
300
1/4" = 1'-0"
140
0.25
141
12.0
290
     0
  0
SCALE
  5
61
102
{ACAD_REACTORS
330
47
102
}
330
47
100
AcDbScale
 70
     0
300
3/8" = 1'-0"
140
0.375
141
12.0
290
     0
  0
SCALE
  5
62
102
{ACAD_REACTORS
330
47
102
}
330
47
100
AcDbScale
 70
     0
300
1/2" = 1'-0"
140
0.5
141
12.0
290
     0
  0
SCALE
  5
63
102
{ACAD_REACTORS
330
47
102
}
330
47
100
AcDbScale
 70
     0
300
3/4" = 1'-0"
140
0.75
141
12.0
290
     0
  0
SCALE
  5
64
102
{ACAD_REACTORS
330
47
102
}
330
47
100
AcDbScale
 70
     0
300
1" = 1'-0"
140
1.0
141
12.0
290
     0
  0
SCALE
  5
65
102
{ACAD_REACTORS
330
47
102
}
330
47
100
AcDbScale
 70
     0
300
1-1/2" = 1'-0"
140
1.5
141
12.0
290
     0
  0
SCALE
  5
66
102
{ACAD_REACTORS
330
47
102
}
330
47
100
AcDbScale
 70
     0
300
3" = 1'-0"
140
3.0
141
12.0
290
     0
  0
SCALE
  5
67
102
{ACAD_REACTORS
330
47
102
}
330
47
100
AcDbScale
 70
     0
300
6" = 1'-0"
140
6.0
141
12.0
290
     0
  0
SCALE
  5
68
102
{ACAD_REACTORS
330
47
102
}
330
47
100
AcDbScale
 70
     0
300
1'-0" = 1'-0"
140
12.0
141
12.0
290
     0
  0
ENDSEC
  0
EOF
